ISO-10303-21;
HEADER;
FILE_DESCRIPTION (( 'STEP AP203' ),
    '1' );
FILE_NAME ('Entry thread seal - Metric and NPT.130 Metric.STEP',
    '2013-02-07T10:14:38',
    ( '' ),
    ( '' ),
    'SwSTEP 2.0',
    'SolidWorks 2012',
    '' );
FILE_SCHEMA (( 'CONFIG_CONTROL_DESIGN' ));
ENDSEC;

DATA;
#1 = FACE_OUTER_BOUND ( 'NONE', #237, .T. ) ;
#2 = FACE_OUTER_BOUND ( 'NONE', #236, .T. ) ;
#3 = CYLINDRICAL_SURFACE ( 'NONE', #102, 65.15000000000000600 ) ;
#4 = CYLINDRICAL_SURFACE ( 'NONE', #106, 75.00000000000000000 ) ;
#5 = FACE_OUTER_BOUND ( 'NONE', #238, .T. ) ;
#6 = FACE_OUTER_BOUND ( 'NONE', #231, .T. ) ;
#7 = PRODUCT_DEFINITION_SHAPE ( 'NONE', 'NONE',  #114 ) ;
#8 = DESIGN_CONTEXT ( 'detailed design', #24, 'design' ) ;
#9 =( LENGTH_UNIT ( ) NAMED_UNIT ( * ) SI_UNIT ( .MILLI., .METRE. ) );
#10 = CARTESIAN_POINT ( 'NONE',  ( -1.000000000000007800, 7.978573896445005300E-015, -65.15000000000000600 ) ) ;
#11 = CARTESIAN_POINT ( 'NONE',  ( 0.9999999999999940000, 0.0000000000000000000, 65.15000000000000600 ) ) ;
#12 = PERSON_AND_ORGANIZATION_ROLE ( 'creator' ) ;
#13 = PERSON_AND_ORGANIZATION_ROLE ( 'classification_officer' ) ;
#14 = SECURITY_CLASSIFICATION_LEVEL ( 'unclassified' ) ;
#15 = APPROVAL_ROLE ( '' ) ;
#16 = APPROVAL_STATUS ( 'not_yet_approved' ) ;
#17 = DATE_TIME_ROLE ( 'creation_date' ) ;
#18 = PERSON_AND_ORGANIZATION_ROLE ( 'creator' ) ;
#19 = APPROVAL_ROLE ( '' ) ;
#20 = APPROVAL_STATUS ( 'not_yet_approved' ) ;
#21 = DIRECTION ( 'NONE',  ( 0.0000000000000000000, 0.0000000000000000000, 1.000000000000000000 ) ) ;
#22 = PERSON_AND_ORGANIZATION_ROLE ( 'design_supplier' ) ;
#23 = APPLICATION_PROTOCOL_DEFINITION ( 'international standard', 'config_control_design', 1994, #24 ) ;
#24 = APPLICATION_CONTEXT ( 'configuration controlled 3d designs of mechanical parts and assemblies' ) ;
#25 = PERSON_AND_ORGANIZATION_ROLE ( 'design_owner' ) ;
#26 = MECHANICAL_CONTEXT ( 'NONE', #29, 'mechanical' ) ;
#27 = APPROVAL_ROLE ( '' ) ;
#28 = DIRECTION ( 'NONE',  ( 1.000000000000000000, 0.0000000000000000000, 0.0000000000000000000 ) ) ;
#29 = APPLICATION_CONTEXT ( 'configuration controlled 3d designs of mechanical parts and assemblies' ) ;
#30 = APPLICATION_PROTOCOL_DEFINITION ( 'international standard', 'config_control_design', 1994, #29 ) ;
#31 = APPROVAL_STATUS ( 'not_yet_approved' ) ;
#32 = DATE_TIME_ROLE ( 'classification_date' ) ;
#33 =( NAMED_UNIT ( * ) SI_UNIT ( $, .STERADIAN. ) SOLID_ANGLE_UNIT ( ) );
#34 =( NAMED_UNIT ( * ) PLANE_ANGLE_UNIT ( ) SI_UNIT ( $, .RADIAN. ) );
#35 = CARTESIAN_POINT ( 'NONE',  ( 0.9999999999999940000, 7.978573896445005300E-015, -65.15000000000000600 ) ) ;
#36 = DIRECTION ( 'NONE',  ( 0.0000000000000000000, 0.0000000000000000000, 1.000000000000000000 ) ) ;
#37 = DIRECTION ( 'NONE',  ( -1.000000000000000000, -0.0000000000000000000, -0.0000000000000000000 ) ) ;
#38 = CARTESIAN_POINT ( 'NONE',  ( 0.9999999999999940000, 0.0000000000000000000, 75.00000000000000000 ) ) ;
#39 = CARTESIAN_POINT ( 'NONE',  ( -1.000000000000007800, 0.0000000000000000000, 65.15000000000000600 ) ) ;
#40 = DIRECTION ( 'NONE',  ( 0.0000000000000000000, 0.0000000000000000000, 1.000000000000000000 ) ) ;
#41 = CARTESIAN_POINT ( 'NONE',  ( 0.9999999999999940000, 9.184850993605148700E-015, -75.00000000000000000 ) ) ;
#42 = CARTESIAN_POINT ( 'NONE',  ( 0.9999999999999940000, 0.0000000000000000000, 0.0000000000000000000 ) ) ;
#43 = CARTESIAN_POINT ( 'NONE',  ( 0.0000000000000000000, 0.0000000000000000000, 0.0000000000000000000 ) ) ;
#44 = DIRECTION ( 'NONE',  ( -1.000000000000000000, -0.0000000000000000000, -0.0000000000000000000 ) ) ;
#45 = DIRECTION ( 'NONE',  ( -1.000000000000000000, -0.0000000000000000000, -0.0000000000000000000 ) ) ;
#46 = CARTESIAN_POINT ( 'NONE',  ( -1.000000000000007800, 0.0000000000000000000, 0.0000000000000000000 ) ) ;
#47 = DIRECTION ( 'NONE',  ( 0.0000000000000000000, 0.0000000000000000000, 1.000000000000000000 ) ) ;
#48 = CARTESIAN_POINT ( 'NONE',  ( -1.000000000000007800, 0.0000000000000000000, 0.0000000000000000000 ) ) ;
#49 = CYLINDRICAL_SURFACE ( 'NONE', #105, 75.00000000000000000 ) ;
#50 = EDGE_CURVE ( 'NONE', #199, #197, #240, .T. ) ;
#51 = CIRCLE ( 'NONE', #108, 65.15000000000000600 ) ;
#52 = CYLINDRICAL_SURFACE ( 'NONE', #109, 65.15000000000000600 ) ;
#53 = CIRCLE ( 'NONE', #104, 65.15000000000000600 ) ;
#54 = SHAPE_DEFINITION_REPRESENTATION ( #7, #191 ) ;
#55 = CIRCLE ( 'NONE', #110, 75.00000000000000000 ) ;
#56 = ORGANIZATION ( 'UNSPECIFIED', 'UNSPECIFIED', '' ) ;
#57 = PERSON_AND_ORGANIZATION ( #195, #56 ) ;
#58 = PERSON_AND_ORGANIZATION ( #195, #56 ) ;
#59 = APPROVAL_PERSON_ORGANIZATION ( #58, #115, #19 ) ;
#60 = COORDINATED_UNIVERSAL_TIME_OFFSET ( 0, 0, .AHEAD. ) ;
#61 = LOCAL_TIME ( 10, 14, 38.00000000000000000, #60 ) ;
#62 = CALENDAR_DATE ( 2013, 7, 2 ) ;
#63 = DATE_AND_TIME ( #62, #61 ) ;
#64 = APPROVAL_DATE_TIME ( #63, #115 ) ;
#65 = PERSON_AND_ORGANIZATION ( #195, #56 ) ;
#66 = COORDINATED_UNIVERSAL_TIME_OFFSET ( 0, 0, .AHEAD. ) ;
#67 = LOCAL_TIME ( 10, 14, 38.00000000000000000, #66 ) ;
#68 = CALENDAR_DATE ( 2013, 7, 2 ) ;
#69 = DATE_AND_TIME ( #68, #67 ) ;
#70 = PERSON_AND_ORGANIZATION ( #195, #56 ) ;
#71 = APPROVAL_PERSON_ORGANIZATION ( #70, #120, #15 ) ;
#72 = COORDINATED_UNIVERSAL_TIME_OFFSET ( 0, 0, .AHEAD. ) ;
#73 = LOCAL_TIME ( 10, 14, 38.00000000000000000, #72 ) ;
#74 = CALENDAR_DATE ( 2013, 7, 2 ) ;
#75 = DATE_AND_TIME ( #74, #73 ) ;
#76 = APPROVAL_DATE_TIME ( #75, #120 ) ;
#77 = PERSON_AND_ORGANIZATION ( #195, #56 ) ;
#78 = PERSON_AND_ORGANIZATION ( #195, #56 ) ;
#79 = PERSON_AND_ORGANIZATION ( #195, #56 ) ;
#80 = COORDINATED_UNIVERSAL_TIME_OFFSET ( 0, 0, .AHEAD. ) ;
#81 = LOCAL_TIME ( 10, 14, 38.00000000000000000, #80 ) ;
#82 = CALENDAR_DATE ( 2013, 7, 2 ) ;
#83 = DATE_AND_TIME ( #82, #81 ) ;
#84 = PERSON_AND_ORGANIZATION ( #195, #56 ) ;
#85 = APPROVAL_PERSON_ORGANIZATION ( #84, #127, #27 ) ;
#86 = COORDINATED_UNIVERSAL_TIME_OFFSET ( 0, 0, .AHEAD. ) ;
#87 = LOCAL_TIME ( 10, 14, 38.00000000000000000, #86 ) ;
#88 = CALENDAR_DATE ( 2013, 7, 2 ) ;
#89 = DATE_AND_TIME ( #88, #87 ) ;
#90 = APPROVAL_DATE_TIME ( #89, #127 ) ;
#91 = EDGE_CURVE ( 'NONE', #199, #205, #200, .T. ) ;
#92 = EDGE_CURVE ( 'NONE', #204, #202, #239, .T. ) ;
#93 = EDGE_CURVE ( 'NONE', #205, #198, #242, .T. ) ;
#94 = EDGE_CURVE ( 'NONE', #204, #201, #244, .T. ) ;
#95 = EDGE_CURVE ( 'NONE', #206, #201, #243, .T. ) ;
#96 = EDGE_CURVE ( 'NONE', #205, #199, #133, .T. ) ;
#97 = AXIS2_PLACEMENT_3D ( 'NONE', #157, #156, #159 ) ;
#98 = AXIS2_PLACEMENT_3D ( 'NONE', #171, #170, #169 ) ;
#99 = AXIS2_PLACEMENT_3D ( 'NONE', #161, #174, #173 ) ;
#100 = AXIS2_PLACEMENT_3D ( 'NONE', #176, #175, #167 ) ;
#101 = AXIS2_PLACEMENT_3D ( 'NONE', #165, #164, #163 ) ;
#102 = AXIS2_PLACEMENT_3D ( 'NONE', #177, #162, #183 ) ;
#103 = AXIS2_PLACEMENT_3D ( 'NONE', #148, #185, #184 ) ;
#104 = AXIS2_PLACEMENT_3D ( 'NONE', #48, #37, #21 ) ;
#105 = AXIS2_PLACEMENT_3D ( 'NONE', #155, #179, #146 ) ;
#106 = AXIS2_PLACEMENT_3D ( 'NONE', #152, #154, #190 ) ;
#107 = AXIS2_PLACEMENT_3D ( 'NONE', #153, #187, #188 ) ;
#108 = AXIS2_PLACEMENT_3D ( 'NONE', #42, #45, #40 ) ;
#109 = AXIS2_PLACEMENT_3D ( 'NONE', #182, #189, #149 ) ;
#110 = AXIS2_PLACEMENT_3D ( 'NONE', #46, #44, #47 ) ;
#111 =( GEOMETRIC_REPRESENTATION_CONTEXT ( 3 ) GLOBAL_UNCERTAINTY_ASSIGNED_CONTEXT ( ( #192 ) ) GLOBAL_UNIT_ASSIGNED_CONTEXT ( ( #9, #34, #33 ) ) REPRESENTATION_CONTEXT ( 'NONE', 'WORKASPACE' ) );
#112 = AXIS2_PLACEMENT_3D ( 'NONE', #43, #36, #28 ) ;
#113 = CC_DESIGN_PERSON_AND_ORGANIZATION_ASSIGNMENT ( #57, #25, ( #194 ) ) ;
#114 = PRODUCT_DEFINITION ( 'UNKNOWN', '', #119, #8 ) ;
#115 = APPROVAL ( #20, 'UNSPECIFIED' ) ;
#116 = CC_DESIGN_APPROVAL ( #115, ( #114 ) ) ;
#117 = CC_DESIGN_PERSON_AND_ORGANIZATION_ASSIGNMENT ( #65, #18, ( #114 ) ) ;
#118 = CC_DESIGN_DATE_AND_TIME_ASSIGNMENT ( #69, #17, ( #114 ) ) ;
#119 = PRODUCT_DEFINITION_FORMATION_WITH_SPECIFIED_SOURCE ( 'ANY', '', #194, .NOT_KNOWN. ) ;
#120 = APPROVAL ( #16, 'UNSPECIFIED' ) ;
#121 = CC_DESIGN_APPROVAL ( #120, ( #119 ) ) ;
#122 = CC_DESIGN_PERSON_AND_ORGANIZATION_ASSIGNMENT ( #77, #12, ( #119 ) ) ;
#123 = CC_DESIGN_PERSON_AND_ORGANIZATION_ASSIGNMENT ( #78, #22, ( #119 ) ) ;
#124 = SECURITY_CLASSIFICATION ( '', '', #14 ) ;
#125 = CC_DESIGN_PERSON_AND_ORGANIZATION_ASSIGNMENT ( #79, #13, ( #124 ) ) ;
#126 = CC_DESIGN_DATE_AND_TIME_ASSIGNMENT ( #83, #32, ( #124 ) ) ;
#127 = APPROVAL ( #31, 'UNSPECIFIED' ) ;
#128 = CC_DESIGN_APPROVAL ( #127, ( #124 ) ) ;
#129 = CC_DESIGN_SECURITY_CLASSIFICATION ( #124, ( #119 ) ) ;
#130 = PRODUCT_RELATED_PRODUCT_CATEGORY ( 'detail', '', ( #194 ) ) ;
#131 = EDGE_CURVE ( 'NONE', #197, #198, #139, .T. ) ;
#132 = EDGE_CURVE ( 'NONE', #202, #206, #137, .T. ) ;
#133 = CIRCLE ( 'NONE', #100, 75.00000000000000000 ) ;
#134 = VECTOR ( 'NONE', #172, 1000.000000000000000 ) ;
#135 = FACE_BOUND ( 'NONE', #232, .T. ) ;
#136 = FACE_OUTER_BOUND ( 'NONE', #233, .T. ) ;
#137 = LINE ( 'NONE', #166, #134 ) ;
#138 = FACE_OUTER_BOUND ( 'NONE', #234, .T. ) ;
#139 = CIRCLE ( 'NONE', #101, 75.00000000000000000 ) ;
#140 = ADVANCED_FACE ( 'NONE', ( #2 ), #3, .F. ) ;
#141 = ADVANCED_FACE ( 'NONE', ( #135, #5 ), #147, .F. ) ;
#142 = ADVANCED_FACE ( 'NONE', ( #138 ), #49, .T. ) ;
#143 = ADVANCED_FACE ( 'NONE', ( #1 ), #4, .T. ) ;
#144 = ADVANCED_FACE ( 'NONE', ( #136, #246 ), #150, .F. ) ;
#145 = ADVANCED_FACE ( 'NONE', ( #6 ), #52, .F. ) ;
#146 = DIRECTION ( 'NONE',  ( 0.0000000000000000000, 0.0000000000000000000, 1.000000000000000000 ) ) ;
#147 = PLANE ( 'NONE',  #103 ) ;
#148 = CARTESIAN_POINT ( 'NONE',  ( -1.000000000000008400, 75.00000000000000000, 0.0000000000000000000 ) ) ;
#149 = DIRECTION ( 'NONE',  ( 0.0000000000000000000, 0.0000000000000000000, 1.000000000000000000 ) ) ;
#150 = PLANE ( 'NONE',  #107 ) ;
#151 = CARTESIAN_POINT ( 'NONE',  ( -1.000000000000007800, 9.184850993605148700E-015, -75.00000000000000000 ) ) ;
#152 = CARTESIAN_POINT ( 'NONE',  ( -39.90653472252495200, 0.0000000000000000000, 0.0000000000000000000 ) ) ;
#153 = CARTESIAN_POINT ( 'NONE',  ( 0.9999999999999913400, 65.15000000000000600, 0.0000000000000000000 ) ) ;
#154 = DIRECTION ( 'NONE',  ( -1.000000000000000000, -0.0000000000000000000, -0.0000000000000000000 ) ) ;
#155 = CARTESIAN_POINT ( 'NONE',  ( -39.90653472252495200, 0.0000000000000000000, 0.0000000000000000000 ) ) ;
#156 = DIRECTION ( 'NONE',  ( -1.000000000000000000, -0.0000000000000000000, -0.0000000000000000000 ) ) ;
#157 = CARTESIAN_POINT ( 'NONE',  ( 0.9999999999999940000, 0.0000000000000000000, 0.0000000000000000000 ) ) ;
#158 = CARTESIAN_POINT ( 'NONE',  ( -39.90653472252495200, 0.0000000000000000000, 75.00000000000000000 ) ) ;
#159 = DIRECTION ( 'NONE',  ( 0.0000000000000000000, 0.0000000000000000000, 1.000000000000000000 ) ) ;
#160 = DIRECTION ( 'NONE',  ( -1.000000000000000000, -0.0000000000000000000, -0.0000000000000000000 ) ) ;
#161 = CARTESIAN_POINT ( 'NONE',  ( -1.000000000000007800, 0.0000000000000000000, 0.0000000000000000000 ) ) ;
#162 = DIRECTION ( 'NONE',  ( -1.000000000000000000, -0.0000000000000000000, -0.0000000000000000000 ) ) ;
#163 = DIRECTION ( 'NONE',  ( 0.0000000000000000000, 0.0000000000000000000, 1.000000000000000000 ) ) ;
#164 = DIRECTION ( 'NONE',  ( -1.000000000000000000, -0.0000000000000000000, -0.0000000000000000000 ) ) ;
#165 = CARTESIAN_POINT ( 'NONE',  ( -1.000000000000007800, 0.0000000000000000000, 0.0000000000000000000 ) ) ;
#166 = CARTESIAN_POINT ( 'NONE',  ( -39.90653472252495200, 0.0000000000000000000, 65.15000000000000600 ) ) ;
#167 = DIRECTION ( 'NONE',  ( 0.0000000000000000000, 0.0000000000000000000, 1.000000000000000000 ) ) ;
#168 = CARTESIAN_POINT ( 'NONE',  ( -39.90653472252495200, 7.978573896445005300E-015, -65.15000000000000600 ) ) ;
#169 = DIRECTION ( 'NONE',  ( 0.0000000000000000000, 0.0000000000000000000, 1.000000000000000000 ) ) ;
#170 = DIRECTION ( 'NONE',  ( -1.000000000000000000, -0.0000000000000000000, -0.0000000000000000000 ) ) ;
#171 = CARTESIAN_POINT ( 'NONE',  ( 0.9999999999999940000, 0.0000000000000000000, 0.0000000000000000000 ) ) ;
#172 = DIRECTION ( 'NONE',  ( -1.000000000000000000, -0.0000000000000000000, -0.0000000000000000000 ) ) ;
#173 = DIRECTION ( 'NONE',  ( 0.0000000000000000000, 0.0000000000000000000, 1.000000000000000000 ) ) ;
#174 = DIRECTION ( 'NONE',  ( -1.000000000000000000, -0.0000000000000000000, -0.0000000000000000000 ) ) ;
#175 = DIRECTION ( 'NONE',  ( -1.000000000000000000, -0.0000000000000000000, -0.0000000000000000000 ) ) ;
#176 = CARTESIAN_POINT ( 'NONE',  ( 0.9999999999999940000, 0.0000000000000000000, 0.0000000000000000000 ) ) ;
#177 = CARTESIAN_POINT ( 'NONE',  ( -39.90653472252495200, 0.0000000000000000000, 0.0000000000000000000 ) ) ;
#178 = CARTESIAN_POINT ( 'NONE',  ( -39.90653472252495200, 9.184850993605148700E-015, -75.00000000000000000 ) ) ;
#179 = DIRECTION ( 'NONE',  ( -1.000000000000000000, -0.0000000000000000000, -0.0000000000000000000 ) ) ;
#180 = DIRECTION ( 'NONE',  ( -1.000000000000000000, -0.0000000000000000000, -0.0000000000000000000 ) ) ;
#181 = CARTESIAN_POINT ( 'NONE',  ( -1.000000000000007800, 0.0000000000000000000, 75.00000000000000000 ) ) ;
#182 = CARTESIAN_POINT ( 'NONE',  ( -39.90653472252495200, 0.0000000000000000000, 0.0000000000000000000 ) ) ;
#183 = DIRECTION ( 'NONE',  ( 0.0000000000000000000, 0.0000000000000000000, 1.000000000000000000 ) ) ;
#184 = DIRECTION ( 'NONE',  ( 0.0000000000000000000, 0.0000000000000000000, -1.000000000000000000 ) ) ;
#185 = DIRECTION ( 'NONE',  ( 1.000000000000000000, 0.0000000000000000000, 0.0000000000000000000 ) ) ;
#186 = DIRECTION ( 'NONE',  ( -1.000000000000000000, -0.0000000000000000000, -0.0000000000000000000 ) ) ;
#187 = DIRECTION ( 'NONE',  ( -1.000000000000000000, 0.0000000000000000000, -0.0000000000000000000 ) ) ;
#188 = DIRECTION ( 'NONE',  ( -0.0000000000000000000, 0.0000000000000000000, 1.000000000000000000 ) ) ;
#189 = DIRECTION ( 'NONE',  ( -1.000000000000000000, -0.0000000000000000000, -0.0000000000000000000 ) ) ;
#190 = DIRECTION ( 'NONE',  ( 0.0000000000000000000, 0.0000000000000000000, 1.000000000000000000 ) ) ;
#191 = ADVANCED_BREP_SHAPE_REPRESENTATION ( 'Entry thread seal - Metric and NPT.130 Metric', ( #193, #112 ), #111 ) ;
#192 = UNCERTAINTY_MEASURE_WITH_UNIT (LENGTH_MEASURE( 1.000000000000000100E-005 ), #9, 'distance_accuracy_value', 'NONE');
#193 = MANIFOLD_SOLID_BREP ( 'Revolve1', #203 ) ;
#194 = PRODUCT ( 'Entry thread seal - Metric and NPT.130 Metric', 'Entry thread seal - Metric and NPT.130 Metric', '', ( #26 ) ) ;
#195 = PERSON ( 'UNSPECIFIED', 'UNSPECIFIED', 'UNSPECIFIED', ('UNSPECIFIED'), ('UNSPECIFIED'), ('UNSPECIFIED') ) ;
#196 = EDGE_CURVE ( 'NONE', #202, #204, #51, .T. ) ;
#197 = VERTEX_POINT ( 'NONE', #151 ) ;
#198 = VERTEX_POINT ( 'NONE', #181 ) ;
#199 = VERTEX_POINT ( 'NONE', #41 ) ;
#200 = CIRCLE ( 'NONE', #97, 75.00000000000000000 ) ;
#201 = VERTEX_POINT ( 'NONE', #10 ) ;
#202 = VERTEX_POINT ( 'NONE', #11 ) ;
#203 = CLOSED_SHELL ( 'NONE', ( #140, #143, #142, #141, #145, #144 ) ) ;
#204 = VERTEX_POINT ( 'NONE', #35 ) ;
#205 = VERTEX_POINT ( 'NONE', #38 ) ;
#206 = VERTEX_POINT ( 'NONE', #39 ) ;
#207 = ORIENTED_EDGE ( 'NONE', *, *, #94, .T. ) ;
#208 = ORIENTED_EDGE ( 'NONE', *, *, #92, .F. ) ;
#209 = ORIENTED_EDGE ( 'NONE', *, *, #248, .T. ) ;
#210 = ORIENTED_EDGE ( 'NONE', *, *, #132, .F. ) ;
#211 = ORIENTED_EDGE ( 'NONE', *, *, #96, .T. ) ;
#212 = ORIENTED_EDGE ( 'NONE', *, *, #50, .T. ) ;
#213 = ORIENTED_EDGE ( 'NONE', *, *, #249, .F. ) ;
#214 = ORIENTED_EDGE ( 'NONE', *, *, #93, .F. ) ;
#215 = ORIENTED_EDGE ( 'NONE', *, *, #50, .F. ) ;
#216 = ORIENTED_EDGE ( 'NONE', *, *, #91, .T. ) ;
#217 = ORIENTED_EDGE ( 'NONE', *, *, #93, .T. ) ;
#218 = ORIENTED_EDGE ( 'NONE', *, *, #131, .F. ) ;
#219 = ORIENTED_EDGE ( 'NONE', *, *, #95, .F. ) ;
#220 = ORIENTED_EDGE ( 'NONE', *, *, #248, .F. ) ;
#221 = ORIENTED_EDGE ( 'NONE', *, *, #249, .T. ) ;
#222 = ORIENTED_EDGE ( 'NONE', *, *, #131, .T. ) ;
#223 = ORIENTED_EDGE ( 'NONE', *, *, #94, .F. ) ;
#224 = ORIENTED_EDGE ( 'NONE', *, *, #196, .F. ) ;
#225 = ORIENTED_EDGE ( 'NONE', *, *, #132, .T. ) ;
#226 = ORIENTED_EDGE ( 'NONE', *, *, #95, .T. ) ;
#227 = ORIENTED_EDGE ( 'NONE', *, *, #96, .F. ) ;
#228 = ORIENTED_EDGE ( 'NONE', *, *, #91, .F. ) ;
#229 = ORIENTED_EDGE ( 'NONE', *, *, #196, .T. ) ;
#230 = ORIENTED_EDGE ( 'NONE', *, *, #92, .T. ) ;
#231 = EDGE_LOOP ( 'NONE', ( #223, #224, #225, #226 ) ) ;
#232 = EDGE_LOOP ( 'NONE', ( #219, #220 ) ) ;
#233 = EDGE_LOOP ( 'NONE', ( #227, #228 ) ) ;
#234 = EDGE_LOOP ( 'NONE', ( #215, #216, #217, #218 ) ) ;
#235 = EDGE_LOOP ( 'NONE', ( #229, #230 ) ) ;
#236 = EDGE_LOOP ( 'NONE', ( #208, #207, #209, #210 ) ) ;
#237 = EDGE_LOOP ( 'NONE', ( #211, #212, #213, #214 ) ) ;
#238 = EDGE_LOOP ( 'NONE', ( #221, #222 ) ) ;
#239 = CIRCLE ( 'NONE', #98, 65.15000000000000600 ) ;
#240 = LINE ( 'NONE', #178, #241 ) ;
#241 = VECTOR ( 'NONE', #186, 1000.000000000000000 ) ;
#242 = LINE ( 'NONE', #158, #245 ) ;
#243 = CIRCLE ( 'NONE', #99, 65.15000000000000600 ) ;
#244 = LINE ( 'NONE', #168, #247 ) ;
#245 = VECTOR ( 'NONE', #180, 1000.000000000000000 ) ;
#246 = FACE_BOUND ( 'NONE', #235, .T. ) ;
#247 = VECTOR ( 'NONE', #160, 1000.000000000000000 ) ;
#248 = EDGE_CURVE ( 'NONE', #201, #206, #53, .T. ) ;
#249 = EDGE_CURVE ( 'NONE', #198, #197, #55, .T. ) ;
ENDSEC;
END-ISO-10303-21;
